BASS TABS [GP4] : Stevie Wonder - Master Blaste

Discussion dans 'Musique' créé par SkankerS, 8 Mai 2005.

Statut de la discussion:
Fermée.
  1. Offline
    SkankerS Groove Master
    Quelqu'un aurai il ce morceau en version GUITAR PRO ????

    J'ais une proposition d'un nouveau projet de groupe composé surtout de reprises "classiques" (Steevie,Queen,Knack,Pink Floyd) et on m'as proposé ça a bosser pour me tester quoi (sans trop me prendre la tete c'est plus pour se faire une idée de mon niveau) !!

    Et je m'en sort techniquement sans probleme mais rythmiquement je calle a certain endroit donc une version en Guitard Pro pourrai m'etre tres utile (mes oreilles n'entendent pas tout :wink: et sur les transition je n'arrive pas a entendre toutes les notes)


    Je suis allez voir sur tous les sites classique mais je n'ais trouvé que des version TXT ou incompletes (voir totalement fausses :cry: )
    SkankerS, 8 Mai 2005
    #1
  2. Offline
    SkankerS Groove Master
    Voici la partie ou je calle niveau rythmique .... Si quelqu'un avais ne fusse que le playback basse se serai pas mal en fait :wink:

    Riff E (solo)

    G|---------------0-------------------------------0-------------------------|
    D|-------1---1-3---3-1-------------------1---1-3---3-1---1--\-5--(5)-------|
    A|-3-1-3---3-----------3-1-3---1-3---1-3---3-----------3-------------------|
    E|---------------------------3---------------------------------------------|

    G|-----------------------8--------------8.------8--------------------------|
    D|------8----8-10.--8-10---10-8----8-10----8-10---10-8-10-8---8------------|
    A|-8-10---10--------------------10--------------------------8---10-8-10-8-6|
    E|-------------------------------------------------------------------------|

    G|-0-----------------------------------------------------------------------|
    D|---3-1--3-1---1----------------------------------------------------------|
    A|------------3---3-1-3-1-2-(3)--------------------------------------------|
    E|-------------------------------------------------------------------------|
    SkankerS, 9 Mai 2005
    #2
Statut de la discussion:
Fermée.